ISO-10303-21;
HEADER;
FILE_DESCRIPTION (( 'STEP AP203' ),
    '1' );
FILE_NAME ('BK7-LPBSC-25.4-1550.STEP',
    '2020-12-22T03:14:18',
    ( '' ),
    ( '' ),
    'SwSTEP 2.0',
    'SolidWorks 2020',
    '' );
FILE_SCHEMA (( 'CONFIG_CONTROL_DESIGN' ));
ENDSEC;

DATA;
#1 = LINE ( 'NONE', #154, #72 ) ;
#2 = APPROVAL_STATUS ( 'not_yet_approved' ) ;
#3 = LINE ( 'NONE', #224, #241 ) ;
#4 = VECTOR ( 'NONE', #130, 1000.000000000000114 ) ;
#5 = DIRECTION ( 'NONE',  ( -1.000000000000000000, 0.000000000000000000, 0.000000000000000000 ) ) ;
#6 = ADVANCED_FACE ( 'NONE', ( #192 ), #146, .F. ) ;
#7 = CARTESIAN_POINT ( 'NONE',  ( -12.69999999999999574, -12.69999999999999396, -12.69999999999999929 ) ) ;
#8 = ORIENTED_EDGE ( 'NONE', *, *, #136, .F. ) ;
#9 = CLOSED_SHELL ( 'NONE', ( #233, #133, #147, #199, #167 ) ) ;
#10 = EDGE_LOOP ( 'NONE', ( #282, #283, #210 ) ) ;
#11 = EDGE_LOOP ( 'NONE', ( #8, #280, #36 ) ) ;
#12 = CC_DESIGN_PERSON_AND_ORGANIZATION_ASSIGNMENT ( #315, #126, ( #272 ) ) ;
#13 = VECTOR ( 'NONE', #53, 1000.000000000000000 ) ;
#14 = CC_DESIGN_SECURITY_CLASSIFICATION ( #272, ( #114 ) ) ;
#15 = ORIENTED_EDGE ( 'NONE', *, *, #136, .T. ) ;
#16 = EDGE_CURVE ( 'NONE', #301, #303, #286, .T. ) ;
#17 = DIRECTION ( 'NONE',  ( -2.220446049250312588E-16, 1.000000000000000000, 0.000000000000000000 ) ) ;
#18 = CARTESIAN_POINT ( 'NONE',  ( 0.000000000000000000, 0.000000000000000000, -12.69999999999999929 ) ) ;
#19 = APPROVAL_DATE_TIME ( #267, #249 ) ;
#20 = DIRECTION ( 'NONE',  ( 1.000000000000000000, -2.220446049250312588E-16, 0.000000000000000000 ) ) ;
#21 = EDGE_CURVE ( 'NONE', #120, #166, #237, .T. ) ;
#22 = CARTESIAN_POINT ( 'NONE',  ( 12.69999999999999929, 12.69999999999999929, 12.69999999999999929 ) ) ;
#23 = PLANE ( 'NONE',  #149 ) ;
#24 = CARTESIAN_POINT ( 'NONE',  ( 12.69999999999999929, 12.69999999999999929, 12.69999999999999929 ) ) ;
#25 = DATE_AND_TIME ( #195, #44 ) ;
#26 = PLANE ( 'NONE',  #87 ) ;
#27 = APPLICATION_PROTOCOL_DEFINITION ( 'international standard', 'config_control_design', 1994, #160 ) ;
#28 = ADVANCED_FACE ( 'NONE', ( #40 ), #239, .F. ) ;
#29 = FACE_OUTER_BOUND ( 'NONE', #186, .T. ) ;
#30 = VECTOR ( 'NONE', #268, 999.9999999999998863 ) ;
#31 = CC_DESIGN_PERSON_AND_ORGANIZATION_ASSIGNMENT ( #75, #245, ( #143 ) ) ;
#32 = DIRECTION ( 'NONE',  ( -0.000000000000000000, -0.000000000000000000, -1.000000000000000000 ) ) ;
#33 = DIRECTION ( 'NONE',  ( 0.000000000000000000, 0.000000000000000000, 1.000000000000000000 ) ) ;
#34 = PRODUCT_DEFINITION ( 'UNKNOWN', '', #114, #163 ) ;
#35 = ORIENTED_EDGE ( 'NONE', *, *, #108, .T. ) ;
#36 = ORIENTED_EDGE ( 'NONE', *, *, #16, .F. ) ;
#37 = PRODUCT_RELATED_PRODUCT_CATEGORY ( 'detail', '', ( #143 ) ) ;
#38 = LOCAL_TIME ( 11, 14, 18.00000000000000000, #317 ) ;
#39 = PLANE ( 'NONE',  #257 ) ;
#40 = FACE_OUTER_BOUND ( 'NONE', #305, .T. ) ;
#41 = DATE_AND_TIME ( #125, #38 ) ;
#42 = ORGANIZATION ( 'UNSPECIFIED', 'UNSPECIFIED', '' ) ;
#43 = CARTESIAN_POINT ( 'NONE',  ( -12.69999999999999574, -12.69999999999999396, 12.69999999999999929 ) ) ;
#44 = LOCAL_TIME ( 11, 14, 18.00000000000000000, #155 ) ;
#45 = CALENDAR_DATE ( 2020, 22, 12 ) ;
#46 = CARTESIAN_POINT ( 'NONE',  ( 12.69999999999999929, -12.69999999999999929, 12.69999999999999929 ) ) ;
#47 = CARTESIAN_POINT ( 'NONE',  ( -12.70000000000000284, 12.70000000000000284, 12.69999999999999929 ) ) ;
#48 = COORDINATED_UNIVERSAL_TIME_OFFSET ( 8, 0, .AHEAD. ) ;
#49 = DIRECTION ( 'NONE',  ( -0.7071067811865475727, 0.7071067811865475727, 0.000000000000000000 ) ) ;
#50 = FACE_OUTER_BOUND ( 'NONE', #254, .T. ) ;
#51 = CC_DESIGN_DATE_AND_TIME_ASSIGNMENT ( #152, #95, ( #272 ) ) ;
#52 = DIRECTION ( 'NONE',  ( 0.000000000000000000, 0.000000000000000000, 1.000000000000000000 ) ) ;
#53 = DIRECTION ( 'NONE',  ( -2.220446049250312588E-16, 1.000000000000000000, 0.000000000000000000 ) ) ;
#54 = DIRECTION ( 'NONE',  ( 0.7071067811865475727, 0.7071067811865475727, 0.000000000000000000 ) ) ;
#55 = APPROVAL_PERSON_ORGANIZATION ( #68, #265, #104 ) ;
#56 = ORIENTED_EDGE ( 'NONE', *, *, #291, .F. ) ;
#57 = DIRECTION ( 'NONE',  ( 1.000000000000000000, 0.000000000000000000, 0.000000000000000000 ) ) ;
#58 = ORIENTED_EDGE ( 'NONE', *, *, #309, .T. ) ;
#59 = ADVANCED_BREP_SHAPE_REPRESENTATION ( 'BK7-LPBSC-25.4-1550', ( #78, #288, #170 ), #106 ) ;
#60 = ORIENTED_EDGE ( 'NONE', *, *, #157, .T. ) ;
#61 = VERTEX_POINT ( 'NONE', #93 ) ;
#62 = EDGE_CURVE ( 'NONE', #166, #188, #225, .T. ) ;
#63 = ORIENTED_EDGE ( 'NONE', *, *, #187, .F. ) ;
#64 = DIRECTION ( 'NONE',  ( -0.7071067811865474617, -0.7071067811865474617, 0.000000000000000000 ) ) ;
#65 = AXIS2_PLACEMENT_3D ( 'NONE', #302, #252, #229 ) ;
#66 = CARTESIAN_POINT ( 'NONE',  ( 12.69999999999999574, 12.69999999999999574, 12.69999999999999929 ) ) ;
#67 = CARTESIAN_POINT ( 'NONE',  ( 12.69999999999999929, 12.69999999999999929, 12.69999999999999929 ) ) ;
#68 = PERSON_AND_ORGANIZATION ( #105, #42 ) ;
#69 = EDGE_CURVE ( 'NONE', #169, #61, #74, .T. ) ;
#70 = DIRECTION ( 'NONE',  ( 0.000000000000000000, 0.000000000000000000, 1.000000000000000000 ) ) ;
#71 = COORDINATED_UNIVERSAL_TIME_OFFSET ( 8, 0, .AHEAD. ) ;
#72 = VECTOR ( 'NONE', #221, 1000.000000000000000 ) ;
#73 = APPROVAL_DATE_TIME ( #98, #265 ) ;
#74 = LINE ( 'NONE', #24, #271 ) ;
#75 = PERSON_AND_ORGANIZATION ( #105, #42 ) ;
#76 = CARTESIAN_POINT ( 'NONE',  ( 12.69999999999999929, 12.69999999999999929, -12.69999999999999929 ) ) ;
#77 = PERSON_AND_ORGANIZATION_ROLE ( 'creator' ) ;
#78 = MANIFOLD_SOLID_BREP ( 'Í¹Ì¨-À', #9 ) ;
#79 = LINE ( 'NONE', #111, #314 ) ;
#80 = VERTEX_POINT ( 'NONE', #181 ) ;
#81 = EDGE_LOOP ( 'NONE', ( #15, #313, #63, #60 ) ) ;
#82 = CC_DESIGN_APPROVAL ( #249, ( #114 ) ) ;
#83 = EDGE_LOOP ( 'NONE', ( #234, #56, #165, #135 ) ) ;
#84 = ORIENTED_EDGE ( 'NONE', *, *, #69, .F. ) ;
#85 = ORIENTED_EDGE ( 'NONE', *, *, #309, .F. ) ;
#86 = ORIENTED_EDGE ( 'NONE', *, *, #172, .T. ) ;
#87 = AXIS2_PLACEMENT_3D ( 'NONE', #178, #128, #266 ) ;
#88 = EDGE_CURVE ( 'NONE', #80, #301, #1, .T. ) ;
#89 = ORIENTED_EDGE ( 'NONE', *, *, #236, .T. ) ;
#90 = CARTESIAN_POINT ( 'NONE',  ( 0.000000000000000000, 0.000000000000000000, 12.69999999999999929 ) ) ;
#91 = DIRECTION ( 'NONE',  ( 0.000000000000000000, 0.000000000000000000, 1.000000000000000000 ) ) ;
#92 = AXIS2_PLACEMENT_3D ( 'NONE', #18, #122, #216 ) ;
#93 = CARTESIAN_POINT ( 'NONE',  ( 12.69999999999999929, 12.69999999999999929, 12.69999999999999929 ) ) ;
#94 = EDGE_CURVE ( 'NONE', #206, #168, #103, .T. ) ;
#95 = DATE_TIME_ROLE ( 'classification_date' ) ;
#96 = CARTESIAN_POINT ( 'NONE',  ( -12.69999999999999751, -12.69999999999999929, -12.69999999999999929 ) ) ;
#97 = PERSON_AND_ORGANIZATION ( #105, #42 ) ;
#98 = DATE_AND_TIME ( #148, #99 ) ;
#99 = LOCAL_TIME ( 11, 14, 18.00000000000000000, #71 ) ;
#100 = CC_DESIGN_PERSON_AND_ORGANIZATION_ASSIGNMENT ( #177, #217, ( #114 ) ) ;
#101 = DIRECTION ( 'NONE',  ( -0.000000000000000000, 1.000000000000000000, -0.000000000000000000 ) ) ;
#102 = DIRECTION ( 'NONE',  ( 1.000000000000000000, 0.000000000000000000, 0.000000000000000000 ) ) ;
#103 = LINE ( 'NONE', #246, #124 ) ;
#104 = APPROVAL_ROLE ( '' ) ;
#105 = PERSON ( 'UNSPECIFIED', 'UNSPECIFIED', 'UNSPECIFIED', ('UNSPECIFIED'), ('UNSPECIFIED'), ('UNSPECIFIED') ) ;
#106 =( GEOMETRIC_REPRESENTATION_CONTEXT ( 3 ) GLOBAL_UNCERTAINTY_ASSIGNED_CONTEXT ( ( #281 ) ) GLOBAL_UNIT_ASSIGNED_CONTEXT ( ( #202, #158, #200 ) ) REPRESENTATION_CONTEXT ( 'NONE', 'WORKASPACE' ) );
#107 = LOCAL_TIME ( 11, 14, 18.00000000000000000, #319 ) ;
#108 = EDGE_CURVE ( 'NONE', #188, #168, #179, .T. ) ;
#109 = CARTESIAN_POINT ( 'NONE',  ( 12.69999999999999929, -12.69999999999999929, 12.69999999999999929 ) ) ;
#110 = ORIENTED_EDGE ( 'NONE', *, *, #16, .T. ) ;
#111 = CARTESIAN_POINT ( 'NONE',  ( 12.69999999999999574, 12.69999999999999574, -12.69999999999999929 ) ) ;
#112 = ORIENTED_EDGE ( 'NONE', *, *, #157, .F. ) ;
#113 = AXIS2_PLACEMENT_3D ( 'NONE', #270, #49, #54 ) ;
#114 = PRODUCT_DEFINITION_FORMATION_WITH_SPECIFIED_SOURCE ( 'ANY', '', #143, .NOT_KNOWN. ) ;
#115 = ORIENTED_EDGE ( 'NONE', *, *, #62, .T. ) ;
#116 = VERTEX_POINT ( 'NONE', #76 ) ;
#117 = CC_DESIGN_PERSON_AND_ORGANIZATION_ASSIGNMENT ( #198, #240, ( #34 ) ) ;
#118 = ORIENTED_EDGE ( 'NONE', *, *, #94, .F. ) ;
#119 = CLOSED_SHELL ( 'NONE', ( #223, #274, #6, #204, #28 ) ) ;
#120 = VERTEX_POINT ( 'NONE', #47 ) ;
#121 = CARTESIAN_POINT ( 'NONE',  ( -12.69999999999999574, -12.69999999999999396, 12.69999999999999929 ) ) ;
#122 = DIRECTION ( 'NONE',  ( 0.000000000000000000, 0.000000000000000000, 1.000000000000000000 ) ) ;
#123 = VECTOR ( 'NONE', #64, 1000.000000000000114 ) ;
#124 = VECTOR ( 'NONE', #297, 999.9999999999998863 ) ;
#125 = CALENDAR_DATE ( 2020, 22, 12 ) ;
#126 = PERSON_AND_ORGANIZATION_ROLE ( 'classification_officer' ) ;
#127 = LINE ( 'NONE', #219, #161 ) ;
#128 = DIRECTION ( 'NONE',  ( 0.000000000000000000, 1.000000000000000000, 0.000000000000000000 ) ) ;
#129 = LOCAL_TIME ( 11, 14, 18.00000000000000000, #48 ) ;
#130 = DIRECTION ( 'NONE',  ( -0.7071067811865474617, -0.7071067811865474617, 0.000000000000000000 ) ) ;
#131 = MECHANICAL_CONTEXT ( 'NONE', #140, 'mechanical' ) ;
#132 = DIRECTION ( 'NONE',  ( 0.7071067811865474617, 0.7071067811865474617, 0.000000000000000000 ) ) ;
#133 = ADVANCED_FACE ( 'NONE', ( #50 ), #26, .F. ) ;
#134 = CARTESIAN_POINT ( 'NONE',  ( 12.69999999999999574, 12.69999999999999574, 12.69999999999999929 ) ) ;
#135 = ORIENTED_EDGE ( 'NONE', *, *, #316, .T. ) ;
#136 = EDGE_CURVE ( 'NONE', #116, #301, #321, .T. ) ;
#137 = VECTOR ( 'NONE', #244, 1000.000000000000000 ) ;
#138 = CC_DESIGN_APPROVAL ( #196, ( #272 ) ) ;
#139 = VERTEX_POINT ( 'NONE', #205 ) ;
#140 = APPLICATION_CONTEXT ( 'configuration controlled 3d designs of mechanical parts and assemblies' ) ;
#141 = EDGE_LOOP ( 'NONE', ( #89, #112, #84, #235 ) ) ;
#142 = CC_DESIGN_PERSON_AND_ORGANIZATION_ASSIGNMENT ( #97, #77, ( #114 ) ) ;
#143 = PRODUCT ( 'BK7-LPBSC-25.4-1550', 'BK7-LPBSC-25.4-1550', '', ( #131 ) ) ;
#144 = DIRECTION ( 'NONE',  ( 2.220446049250312588E-16, -1.000000000000000000, 0.000000000000000000 ) ) ;
#145 = CARTESIAN_POINT ( 'NONE',  ( 0.000000000000000000, 0.000000000000000000, 12.69999999999999929 ) ) ;
#146 = PLANE ( 'NONE',  #208 ) ;
#147 = ADVANCED_FACE ( 'NONE', ( #164 ), #275, .F. ) ;
#148 = CALENDAR_DATE ( 2020, 22, 12 ) ;
#149 = AXIS2_PLACEMENT_3D ( 'NONE', #90, #171, #174 ) ;
#150 = LINE ( 'NONE', #243, #13 ) ;
#151 = EDGE_CURVE ( 'NONE', #80, #169, #278, .T. ) ;
#152 = DATE_AND_TIME ( #293, #107 ) ;
#153 = FACE_OUTER_BOUND ( 'NONE', #81, .T. ) ;
#154 = CARTESIAN_POINT ( 'NONE',  ( -12.69999999999999751, -12.69999999999999929, 12.69999999999999929 ) ) ;
#155 = COORDINATED_UNIVERSAL_TIME_OFFSET ( 8, 0, .AHEAD. ) ;
#156 = CARTESIAN_POINT ( 'NONE',  ( 12.69999999999999929, 12.69999999999999929, -12.69999999999999929 ) ) ;
#157 = EDGE_CURVE ( 'NONE', #61, #116, #207, .T. ) ;
#158 =( NAMED_UNIT ( * ) PLANE_ANGLE_UNIT ( ) SI_UNIT ( $, .RADIAN. ) );
#159 = DIRECTION ( 'NONE',  ( 0.7071067811865475727, -0.7071067811865475727, 0.000000000000000000 ) ) ;
#160 = APPLICATION_CONTEXT ( 'configuration controlled 3d designs of mechanical parts and assemblies' ) ;
#161 = VECTOR ( 'NONE', #318, 1000.000000000000000 ) ;
#162 = CARTESIAN_POINT ( 'NONE',  ( 12.69999999999999929, 12.69999999999999929, 12.69999999999999929 ) ) ;
#163 = DESIGN_CONTEXT ( 'detailed design', #160, 'design' ) ;
#164 = FACE_OUTER_BOUND ( 'NONE', #141, .T. ) ;
#165 = ORIENTED_EDGE ( 'NONE', *, *, #21, .T. ) ;
#166 = VERTEX_POINT ( 'NONE', #134 ) ;
#167 = ADVANCED_FACE ( 'NONE', ( #231 ), #230, .F. ) ;
#168 = VERTEX_POINT ( 'NONE', #7 ) ;
#169 = VERTEX_POINT ( 'NONE', #109 ) ;
#170 = AXIS2_PLACEMENT_3D ( 'NONE', #226, #52, #102 ) ;
#171 = DIRECTION ( 'NONE',  ( -0.000000000000000000, 0.000000000000000000, 1.000000000000000000 ) ) ;
#172 = EDGE_CURVE ( 'NONE', #139, #206, #79, .T. ) ;
#173 = CARTESIAN_POINT ( 'NONE',  ( -12.69999999999999751, -12.69999999999999929, -12.69999999999999929 ) ) ;
#174 = DIRECTION ( 'NONE',  ( 1.000000000000000000, 0.000000000000000000, 0.000000000000000000 ) ) ;
#175 = PERSON_AND_ORGANIZATION ( #105, #42 ) ;
#176 = PLANE ( 'NONE',  #304 ) ;
#177 = PERSON_AND_ORGANIZATION ( #105, #42 ) ;
#178 = CARTESIAN_POINT ( 'NONE',  ( -12.69999999999999751, -12.69999999999999929, 12.69999999999999929 ) ) ;
#179 = LINE ( 'NONE', #197, #137 ) ;
#180 = PLANE ( 'NONE',  #113 ) ;
#181 = CARTESIAN_POINT ( 'NONE',  ( -12.69999999999999751, -12.69999999999999929, 12.69999999999999929 ) ) ;
#182 = EDGE_CURVE ( 'NONE', #169, #303, #191, .T. ) ;
#183 = EDGE_CURVE ( 'NONE', #188, #120, #311, .T. ) ;
#184 = DIRECTION ( 'NONE',  ( 1.000000000000000000, -2.220446049250312588E-16, 0.000000000000000000 ) ) ;
#185 = ORIENTED_EDGE ( 'NONE', *, *, #69, .T. ) ;
#186 = EDGE_LOOP ( 'NONE', ( #118, #312, #115, #35 ) ) ;
#187 = EDGE_CURVE ( 'NONE', #61, #80, #260, .T. ) ;
#188 = VERTEX_POINT ( 'NONE', #213 ) ;
#189 = EDGE_LOOP ( 'NONE', ( #85, #306, #209, #276 ) ) ;
#190 = CC_DESIGN_DATE_AND_TIME_ASSIGNMENT ( #41, #201, ( #34 ) ) ;
#191 = LINE ( 'NONE', #46, #250 ) ;
#192 = FACE_OUTER_BOUND ( 'NONE', #83, .T. ) ;
#193 = DIRECTION ( 'NONE',  ( -0.000000000000000000, -0.000000000000000000, -1.000000000000000000 ) ) ;
#194 = APPROVAL_PERSON_ORGANIZATION ( #175, #196, #242 ) ;
#195 = CALENDAR_DATE ( 2020, 22, 12 ) ;
#196 = APPROVAL ( #218, 'UNSPECIFIED' ) ;
#197 = CARTESIAN_POINT ( 'NONE',  ( -12.69999999999999574, -12.69999999999999396, 12.69999999999999929 ) ) ;
#198 = PERSON_AND_ORGANIZATION ( #105, #42 ) ;
#199 = ADVANCED_FACE ( 'NONE', ( #289 ), #23, .T. ) ;
#200 =( NAMED_UNIT ( * ) SI_UNIT ( $, .STERADIAN. ) SOLID_ANGLE_UNIT ( ) );
#201 = DATE_TIME_ROLE ( 'creation_date' ) ;
#202 =( LENGTH_UNIT ( ) NAMED_UNIT ( * ) SI_UNIT ( .MILLI., .METRE. ) );
#203 = AXIS2_PLACEMENT_3D ( 'NONE', #22, #159, #132 ) ;
#204 = ADVANCED_FACE ( 'NONE', ( #258 ), #39, .T. ) ;
#205 = CARTESIAN_POINT ( 'NONE',  ( -12.70000000000000284, 12.70000000000000284, -12.69999999999999929 ) ) ;
#206 = VERTEX_POINT ( 'NONE', #215 ) ;
#207 = LINE ( 'NONE', #300, #222 ) ;
#208 = AXIS2_PLACEMENT_3D ( 'NONE', #256, #144, #91 ) ;
#209 = ORIENTED_EDGE ( 'NONE', *, *, #183, .T. ) ;
#210 = ORIENTED_EDGE ( 'NONE', *, *, #183, .F. ) ;
#211 = EDGE_LOOP ( 'NONE', ( #308, #212, #185 ) ) ;
#212 = ORIENTED_EDGE ( 'NONE', *, *, #151, .T. ) ;
#213 = CARTESIAN_POINT ( 'NONE',  ( -12.69999999999999574, -12.69999999999999396, 12.69999999999999929 ) ) ;
#214 = ORIENTED_EDGE ( 'NONE', *, *, #88, .T. ) ;
#215 = CARTESIAN_POINT ( 'NONE',  ( 12.69999999999999574, 12.69999999999999574, -12.69999999999999929 ) ) ;
#216 = DIRECTION ( 'NONE',  ( -2.220446049250312588E-16, 1.000000000000000000, 0.000000000000000000 ) ) ;
#217 = PERSON_AND_ORGANIZATION_ROLE ( 'design_supplier' ) ;
#218 = APPROVAL_STATUS ( 'not_yet_approved' ) ;
#219 = CARTESIAN_POINT ( 'NONE',  ( -12.70000000000000284, 12.70000000000000284, 12.69999999999999929 ) ) ;
#220 = DIRECTION ( 'NONE',  ( -0.000000000000000000, 1.000000000000000000, -0.000000000000000000 ) ) ;
#221 = DIRECTION ( 'NONE',  ( -0.000000000000000000, -0.000000000000000000, -1.000000000000000000 ) ) ;
#222 = VECTOR ( 'NONE', #32, 1000.000000000000000 ) ;
#223 = ADVANCED_FACE ( 'NONE', ( #29 ), #180, .F. ) ;
#224 = CARTESIAN_POINT ( 'NONE',  ( 12.69999999999999574, 12.69999999999999574, 12.69999999999999929 ) ) ;
#225 = LINE ( 'NONE', #295, #30 ) ;
#226 = CARTESIAN_POINT ( 'NONE',  ( 0.000000000000000000, 0.000000000000000000, 0.000000000000000000 ) ) ;
#227 = CARTESIAN_POINT ( 'NONE',  ( 12.69999999999999929, 12.69999999999999929, -12.69999999999999929 ) ) ;
#228 = VECTOR ( 'NONE', #220, 1000.000000000000000 ) ;
#229 = DIRECTION ( 'NONE',  ( 1.000000000000000000, 0.000000000000000000, 0.000000000000000000 ) ) ;
#230 = PLANE ( 'NONE',  #65 ) ;
#231 = FACE_OUTER_BOUND ( 'NONE', #11, .T. ) ;
#232 = VECTOR ( 'NONE', #259, 1000.000000000000000 ) ;
#233 = ADVANCED_FACE ( 'NONE', ( #153 ), #273, .F. ) ;
#234 = ORIENTED_EDGE ( 'NONE', *, *, #172, .F. ) ;
#235 = ORIENTED_EDGE ( 'NONE', *, *, #182, .T. ) ;
#236 = EDGE_CURVE ( 'NONE', #303, #116, #248, .T. ) ;
#237 = LINE ( 'NONE', #66, #232 ) ;
#238 = DIRECTION ( 'NONE',  ( 0.000000000000000000, 0.000000000000000000, 1.000000000000000000 ) ) ;
#239 = PLANE ( 'NONE',  #92 ) ;
#240 = PERSON_AND_ORGANIZATION_ROLE ( 'creator' ) ;
#241 = VECTOR ( 'NONE', #294, 1000.000000000000000 ) ;
#242 = APPROVAL_ROLE ( '' ) ;
#243 = CARTESIAN_POINT ( 'NONE',  ( -12.69999999999999574, -12.69999999999999396, -12.69999999999999929 ) ) ;
#244 = DIRECTION ( 'NONE',  ( 0.000000000000000000, 0.000000000000000000, -1.000000000000000000 ) ) ;
#245 = PERSON_AND_ORGANIZATION_ROLE ( 'design_owner' ) ;
#246 = CARTESIAN_POINT ( 'NONE',  ( 12.69999999999999574, 12.69999999999999574, -12.69999999999999929 ) ) ;
#247 = VECTOR ( 'NONE', #285, 1000.000000000000000 ) ;
#248 = LINE ( 'NONE', #227, #228 ) ;
#249 = APPROVAL ( #269, 'UNSPECIFIED' ) ;
#250 = VECTOR ( 'NONE', #193, 1000.000000000000000 ) ;
#251 = CARTESIAN_POINT ( 'NONE',  ( -12.69999999999999751, -12.69999999999999929, 12.69999999999999929 ) ) ;
#252 = DIRECTION ( 'NONE',  ( -0.000000000000000000, 0.000000000000000000, 1.000000000000000000 ) ) ;
#253 = VECTOR ( 'NONE', #57, 1000.000000000000000 ) ;
#254 = EDGE_LOOP ( 'NONE', ( #110, #307, #279, #214 ) ) ;
#255 = ORIENTED_EDGE ( 'NONE', *, *, #94, .T. ) ;
#256 = CARTESIAN_POINT ( 'NONE',  ( 12.69999999999999574, 12.69999999999999574, 12.69999999999999929 ) ) ;
#257 = AXIS2_PLACEMENT_3D ( 'NONE', #145, #238, #17 ) ;
#258 = FACE_OUTER_BOUND ( 'NONE', #10, .T. ) ;
#259 = DIRECTION ( 'NONE',  ( 1.000000000000000000, -2.220446049250312588E-16, 0.000000000000000000 ) ) ;
#260 = LINE ( 'NONE', #67, #123 ) ;
#261 = SECURITY_CLASSIFICATION_LEVEL ( 'unclassified' ) ;
#262 = SHAPE_DEFINITION_REPRESENTATION ( #310, #59 ) ;
#263 = CARTESIAN_POINT ( 'NONE',  ( 12.69999999999999929, -12.69999999999999929, -12.69999999999999929 ) ) ;
#264 = APPLICATION_PROTOCOL_DEFINITION ( 'international standard', 'config_control_design', 1994, #140 ) ;
#265 = APPROVAL ( #2, 'UNSPECIFIED' ) ;
#266 = DIRECTION ( 'NONE',  ( 0.000000000000000000, -0.000000000000000000, 1.000000000000000000 ) ) ;
#267 = DATE_AND_TIME ( #45, #129 ) ;
#268 = DIRECTION ( 'NONE',  ( -0.7071067811865475727, -0.7071067811865475727, 0.000000000000000000 ) ) ;
#269 = APPROVAL_STATUS ( 'not_yet_approved' ) ;
#270 = CARTESIAN_POINT ( 'NONE',  ( 12.69999999999999574, 12.69999999999999574, 12.69999999999999929 ) ) ;
#271 = VECTOR ( 'NONE', #101, 1000.000000000000000 ) ;
#272 = SECURITY_CLASSIFICATION ( '', '', #261 ) ;
#273 = PLANE ( 'NONE',  #203 ) ;
#274 = ADVANCED_FACE ( 'NONE', ( #320 ), #176, .F. ) ;
#275 = PLANE ( 'NONE',  #292 ) ;
#276 = ORIENTED_EDGE ( 'NONE', *, *, #291, .T. ) ;
#277 = CC_DESIGN_APPROVAL ( #265, ( #34 ) ) ;
#278 = LINE ( 'NONE', #251, #253 ) ;
#279 = ORIENTED_EDGE ( 'NONE', *, *, #151, .F. ) ;
#280 = ORIENTED_EDGE ( 'NONE', *, *, #236, .F. ) ;
#281 = UNCERTAINTY_MEASURE_WITH_UNIT (LENGTH_MEASURE( 1.000000000000000082E-05 ), #202, 'distance_accuracy_value', 'NONE');
#282 = ORIENTED_EDGE ( 'NONE', *, *, #62, .F. ) ;
#283 = ORIENTED_EDGE ( 'NONE', *, *, #21, .F. ) ;
#284 = DIRECTION ( 'NONE',  ( 1.000000000000000000, 0.000000000000000000, 0.000000000000000000 ) ) ;
#285 = DIRECTION ( 'NONE',  ( -2.220446049250312588E-16, 1.000000000000000000, 0.000000000000000000 ) ) ;
#286 = LINE ( 'NONE', #173, #287 ) ;
#287 = VECTOR ( 'NONE', #284, 1000.000000000000000 ) ;
#288 = MANIFOLD_SOLID_BREP ( '¾µÏ', #119 ) ;
#289 = FACE_OUTER_BOUND ( 'NONE', #211, .T. ) ;
#290 = APPROVAL_DATE_TIME ( #25, #196 ) ;
#291 = EDGE_CURVE ( 'NONE', #120, #139, #127, .T. ) ;
#292 = AXIS2_PLACEMENT_3D ( 'NONE', #162, #5, #33 ) ;
#293 = CALENDAR_DATE ( 2020, 22, 12 ) ;
#294 = DIRECTION ( 'NONE',  ( 0.000000000000000000, 0.000000000000000000, -1.000000000000000000 ) ) ;
#295 = CARTESIAN_POINT ( 'NONE',  ( 12.69999999999999574, 12.69999999999999574, 12.69999999999999929 ) ) ;
#296 = PERSON_AND_ORGANIZATION ( #105, #42 ) ;
#297 = DIRECTION ( 'NONE',  ( -0.7071067811865475727, -0.7071067811865475727, 0.000000000000000000 ) ) ;
#298 = APPROVAL_ROLE ( '' ) ;
#299 = APPROVAL_PERSON_ORGANIZATION ( #296, #249, #298 ) ;
#300 = CARTESIAN_POINT ( 'NONE',  ( 12.69999999999999929, 12.69999999999999929, 12.69999999999999929 ) ) ;
#301 = VERTEX_POINT ( 'NONE', #96 ) ;
#302 = CARTESIAN_POINT ( 'NONE',  ( 0.000000000000000000, 0.000000000000000000, -12.69999999999999929 ) ) ;
#303 = VERTEX_POINT ( 'NONE', #263 ) ;
#304 = AXIS2_PLACEMENT_3D ( 'NONE', #43, #20, #70 ) ;
#305 = EDGE_LOOP ( 'NONE', ( #255, #58, #86 ) ) ;
#306 = ORIENTED_EDGE ( 'NONE', *, *, #108, .F. ) ;
#307 = ORIENTED_EDGE ( 'NONE', *, *, #182, .F. ) ;
#308 = ORIENTED_EDGE ( 'NONE', *, *, #187, .T. ) ;
#309 = EDGE_CURVE ( 'NONE', #168, #139, #150, .T. ) ;
#310 = PRODUCT_DEFINITION_SHAPE ( 'NONE', 'NONE',  #34 ) ;
#311 = LINE ( 'NONE', #121, #247 ) ;
#312 = ORIENTED_EDGE ( 'NONE', *, *, #316, .F. ) ;
#313 = ORIENTED_EDGE ( 'NONE', *, *, #88, .F. ) ;
#314 = VECTOR ( 'NONE', #184, 1000.000000000000000 ) ;
#315 = PERSON_AND_ORGANIZATION ( #105, #42 ) ;
#316 = EDGE_CURVE ( 'NONE', #166, #206, #3, .T. ) ;
#317 = COORDINATED_UNIVERSAL_TIME_OFFSET ( 8, 0, .AHEAD. ) ;
#318 = DIRECTION ( 'NONE',  ( 0.000000000000000000, 0.000000000000000000, -1.000000000000000000 ) ) ;
#319 = COORDINATED_UNIVERSAL_TIME_OFFSET ( 8, 0, .AHEAD. ) ;
#320 = FACE_OUTER_BOUND ( 'NONE', #189, .T. ) ;
#321 = LINE ( 'NONE', #156, #4 ) ;
ENDSEC;
END-ISO-10303-21;
